  0
SECTION
  2
HEADER
  9
$ACADVER
  1
AC1015
  9
$ACADMAINTVER
 70
     6
  9
$DWGCODEPAGE
  3
ANSI_1254
  9
$INSBASE
 10
0.0
 20
0.0
 30
0.0
  9
$EXTMIN
 10
0.0
 20
0.0
 30
0.0
  9
$EXTMAX
 10
279.4
 20
215.9
 30
0.0
  9
$LIMMIN
 10
0.0
 20
0.0
  9
$LIMMAX
 10
279.4
 20
215.9
  9
$ORTHOMODE
 70
     0
  9
$REGENMODE
 70
     1
  9
$FILLMODE
 70
     1
  9
$QTEXTMODE
 70
     0
  9
$MIRRTEXT
 70
     1
  9
$LTSCALE
 40
1.0
  9
$ATTMODE
 70
     1
  9
$TEXTSIZE
 40
3.5
  9
$TRACEWID
 40
1.0
  9
$TEXTSTYLE
  7
Standard
  9
$CLAYER
  8
0
  9
$CELTYPE
  6
ByLayer
  9
$CECOLOR
 62
   256
  9
$CELTSCALE
 40
1.0
  9
$DISPSILH
 70
     0
  9
$DIMSCALE
 40
1.0
  9
$DIMASZ
 40
3.5
  9
$DIMEXO
 40
1.0
  9
$DIMDLI
 40
3.75
  9
$DIMRND
 40
0.0
  9
$DIMDLE
 40
0.0
  9
$DIMEXE
 40
1.0
  9
$DIMTP
 40
0.0
  9
$DIMTM
 40
0.0
  9
$DIMTXT
 40
3.5
  9
$DIMCEN
 40
2.5
  9
$DIMTSZ
 40
0.0
  9
$DIMTOL
 70
     0
  9
$DIMLIM
 70
     0
  9
$DIMTIH
 70
     1
  9
$DIMTOH
 70
     1
  9
$DIMSE1
 70
     0
  9
$DIMSE2
 70
     0
  9
$DIMTAD
 70
     1
  9
$DIMZIN
 70
     0
  9
$DIMBLK
  1

  9
$DIMASO
 70
     1
  9
$DIMSHO
 70
     1
  9
$DIMPOST
  1

  9
$DIMAPOST
  1

  9
$DIMALT
 70
     0
  9
$DIMALTD
 70
     3
  9
$DIMALTF
 40
0.0393700787
  9
$DIMLFAC
 40
1.0
  9
$DIMTOFL
 70
     1
  9
$DIMTVP
 40
0.0
  9
$DIMTIX
 70
     0
  9
$DIMSOXD
 70
     0
  9
$DIMSAH
 70
     0
  9
$DIMBLK1
  1

  9
$DIMBLK2
  1

  9
$DIMSTYLE
  2
ISO-25
  9
$DIMCLRD
 70
     0
  9
$DIMCLRE
 70
     0
  9
$DIMCLRT
 70
     0
  9
$DIMTFAC
 40
1.0
  9
$DIMGAP
 40
1.524
  9
$DIMJUST
 70
     0
  9
$DIMSD1
 70
     0
  9
$DIMSD2
 70
     0
  9
$DIMTOLJ
 70
     0
  9
$DIMTZIN
 70
     0
  9
$DIMALTZ
 70
     0
  9
$DIMALTTZ
 70
     0
  9
$DIMUPT
 70
     0
  9
$DIMDEC
 70
     2
  9
$DIMTDEC
 70
     2
  9
$DIMALTU
 70
     2
  9
$DIMALTTD
 70
     3
  9
$DIMTXSTY
  7
Standard
  9
$DIMAUNIT
 70
     0
  9
$DIMADEC
 70
     2
  9
$DIMALTRND
 40
0.0
  9
$DIMAZIN
 70
     0
  9
$DIMDSEP
 70
    44
  9
$DIMATFIT
 70
     3
  9
$DIMFRAC
 70
     0
  9
$DIMLDRBLK
  1

  9
$DIMLUNIT
 70
     2
  9
$DIMLWD
 70
    -2
  9
$DIMLWE
 70
    -2
  9
$DIMTMOVE
 70
     0
  9
$LUNITS
 70
     2
  9
$LUPREC
 70
     2
  9
$SKETCHINC
 40
1.0
  9
$FILLETRAD
 40
10.0
  9
$AUNITS
 70
     0
  9
$AUPREC
 70
     2
  9
$MENU
  1
.
  9
$ELEVATION
 40
0.0
  9
$PELEVATION
 40
0.0
  9
$THICKNESS
 40
0.0
  9
$LIMCHECK
 70
     0
  9
$CHAMFERA
 40
0.0
  9
$CHAMFERB
 40
0.0
  9
$CHAMFERC
 40
0.0
  9
$CHAMFERD
 40
0.0
  9
$SKPOLY
 70
     0
  9
$TDCREATE
 40
2458985.699570868
  9
$TDUCREATE
 40
2458985.574570868
  9
$TDUPDATE
 40
2458985.699571123
  9
$TDUUPDATE
 40
2458985.574571123
  9
$TDINDWG
 40
0.0000000116
  9
$TDUSRTIMER
 40
0.0000000116
  9
$USRTIMER
 70
     1
  9
$ANGBASE
 50
0.0
  9
$ANGDIR
 70
     0
  9
$PDMODE
 70
     0
  9
$PDSIZE
 40
-1.0
  9
$PLINEWID
 40
0.0
  9
$SPLFRAME
 70
     0
  9
$SPLINETYPE
 70
     6
  9
$SPLINESEGS
 70
     8
  9
$HANDSEED
  5
F1
  9
$SURFTAB1
 70
     6
  9
$SURFTAB2
 70
     6
  9
$SURFTYPE
 70
     6
  9
$SURFU
 70
     6
  9
$SURFV
 70
     6
  9
$UCSBASE
  2

  9
$UCSNAME
  2

  9
$UCSORG
 10
0.0
 20
0.0
 30
0.0
  9
$UCSXDIR
 10
1.0
 20
0.0
 30
0.0
  9
$UCSYDIR
 10
0.0
 20
1.0
 30
0.0
  9
$UCSORTHOREF
  2

  9
$UCSORTHOVIEW
 70
     0
  9
$UCSORGTOP
 10
0.0
 20
0.0
 30
0.0
  9
$UCSORGBOTTOM
 10
0.0
 20
0.0
 30
0.0
  9
$UCSORGLEFT
 10
0.0
 20
0.0
 30
0.0
  9
$UCSORGRIGHT
 10
0.0
 20
0.0
 30
0.0
  9
$UCSORGFRONT
 10
0.0
 20
0.0
 30
0.0
  9
$UCSORGBACK
 10
0.0
 20
0.0
 30
0.0
  9
$PUCSBASE
  2

  9
$PUCSNAME
  2

  9
$PUCSORG
 10
0.0
 20
0.0
 30
0.0
  9
$PUCSXDIR
 10
1.0
 20
0.0
 30
0.0
  9
$PUCSYDIR
 10
0.0
 20
1.0
 30
0.0
  9
$PUCSORTHOREF
  2

  9
$PUCSORTHOVIEW
 70
     0
  9
$PUCSORGTOP
 10
0.0
 20
0.0
 30
0.0
  9
$PUCSORGBOTTOM
 10
0.0
 20
0.0
 30
0.0
  9
$PUCSORGLEFT
 10
0.0
 20
0.0
 30
0.0
  9
$PUCSORGRIGHT
 10
0.0
 20
0.0
 30
0.0
  9
$PUCSORGFRONT
 10
0.0
 20
0.0
 30
0.0
  9
$PUCSORGBACK
 10
0.0
 20
0.0
 30
0.0
  9
$USERI1
 70
     0
  9
$USERI2
 70
     0
  9
$USERI3
 70
     0
  9
$USERI4
 70
     0
  9
$USERI5
 70
     0
  9
$USERR1
 40
0.0
  9
$USERR2
 40
0.0
  9
$USERR3
 40
0.0
  9
$USERR4
 40
0.0
  9
$USERR5
 40
0.0
  9
$WORLDVIEW
 70
     1
  9
$SHADEDGE
 70
     3
  9
$SHADEDIF
 70
    70
  9
$TILEMODE
 70
     1
  9
$MAXACTVP
 70
    64
  9
$PINSBASE
 10
0.0
 20
0.0
 30
0.0
  9
$PLIMCHECK
 70
     0
  9
$PEXTMIN
 10
1.0000000000E+20
 20
1.0000000000E+20
 30
1.0000000000E+20
  9
$PEXTMAX
 10
-1.0000000000E+20
 20
-1.0000000000E+20
 30
-1.0000000000E+20
  9
$PLIMMIN
 10
0.0
 20
0.0
  9
$PLIMMAX
 10
420.0
 20
297.0
  9
$UNITMODE
 70
     0
  9
$VISRETAIN
 70
     1
  9
$PLINEGEN
 70
     0
  9
$PSLTSCALE
 70
     1
  9
$TREEDEPTH
 70
  3020
  9
$CMLSTYLE
  2
Standard
  9
$CMLJUST
 70
     0
  9
$CMLSCALE
 40
20.0
  9
$PROXYGRAPHICS
 70
     1
  9
$MEASUREMENT
 70
     1
  9
$CELWEIGHT
370
    -1
  9
$ENDCAPS
280
     0
  9
$JOINSTYLE
280
     0
  9
$LWDISPLAY
290
     1
  9
$INSUNITS
 70
     4
  9
$HYPERLINKBASE
  1

  9
$STYLESHEET
  1

  9
$XEDIT
290
     1
  9
$CEPSNTYPE
380
     0
  9
$PSTYLEMODE
290
     1
  9
$FINGERPRINTGUID
  2
{804ad785-70fa-4204-92ee-e5315bb5247c}
  9
$VERSIONGUID
  2
{FAEB1C32-E019-11D5-929B-00C0DF256EC4}
  9
$EXTNAMES
290
     1
  9
$PSVPSCALE
 40
0.0
  9
$OLESTARTUP
290
     0
  0
ENDSEC
  0
SECTION
  2
CLASSES
  0
CLASS
  1
ACDBDICTIONARYWDFLT
  2
AcDbDictionaryWithDefault
  3
ObjectDBX Classes
 90
        0
280
     0
281
     0
  0
CLASS
  1
VISUALSTYLE
  2
AcDbVisualStyle
  3
ObjectDBX Classes
 90
     4095
280
     0
281
     0
  0
CLASS
  1
MATERIAL
  2
AcDbMaterial
  3
ObjectDBX Classes
 90
     1153
280
     0
281
     0
  0
CLASS
  1
SCALE
  2
AcDbScale
  3
ObjectDBX Classes
 90
     1153
280
     0
281
     0
  0
CLASS
  1
TABLESTYLE
  2
AcDbTableStyle
  3
ObjectDBX Classes
 90
     4095
280
     0
281
     0
  0
CLASS
  1
MLEADERSTYLE
  2
AcDbMLeaderStyle
  3
ACDB_MLEADERSTYLE_CLASS
 90
     4095
280
     0
281
     0
  0
CLASS
  1
SUN
  2
AcDbSun
  3
SCENEOE
 90
     1153
280
     0
281
     0
  0
CLASS
  1
ACDBPLACEHOLDER
  2
AcDbPlaceHolder
  3
ObjectDBX Classes
 90
        0
280
     0
281
     0
  0
CLASS
  1
LAYOUT
  2
AcDbLayout
  3
ObjectDBX Classes
 90
        0
280
     0
281
     0
  0
ENDSEC
  0
SECTION
  2
TABLES
  0
TABLE
  2
VPORT
  5
8
330
0
100
AcDbSymbolTable
 70
     1
  0
VPORT
  5
29
330
8
100
AcDbSymbolTableRecord
100
AcDbViewportTableRecord
  2
*Active
 70
     0
 10
0.0
 20
0.0
 11
1.0
 21
1.0
 12
139.7
 22
107.95
 13
0.0
 23
0.0
 14
10.0
 24
10.0
 15
10.0
 25
10.0
 16
0.0
 26
0.0
 36
1.0
 17
0.0
 27
0.0
 37
0.0
 40
215.9
 41
1.2941176471
 42
50.0
 43
0.0
 44
0.0
 50
0.0
 51
0.0
 71
     0
 72
  2000
 73
     1
 74
     3
 75
     0
 76
     0
 77
     0
 78
     0
281
     0
 65
     1
110
0.0
120
0.0
130
0.0
111
1.0
121
0.0
131
0.0
112
0.0
122
1.0
132
0.0
 79
     0
146
0.0
  0
ENDTAB
  0
TABLE
  2
LTYPE
  5
5
330
0
100
AcDbSymbolTable
 70
     6
  0
LTYPE
  5
14
330
5
100
AcDbSymbolTableRecord
100
AcDbLinetypeTableRecord
  2
ByBlock
 70
     0
  3

 72
    65
 73
     0
 40
0.0
  0
LTYPE
  5
15
330
5
100
AcDbSymbolTableRecord
100
AcDbLinetypeTableRecord
  2
ByLayer
 70
     0
  3

 72
    65
 73
     0
 40
0.0
  0
LTYPE
  5
16
330
5
100
AcDbSymbolTableRecord
100
AcDbLinetypeTableRecord
  2
Continuous
 70
     0
  3
Solid line
 72
    65
 73
     0
 40
0.0
  0
LTYPE
  5
6E
330
5
100
AcDbSymbolTableRecord
100
AcDbLinetypeTableRecord
  2
HIDDEN
 70
     0
  3
Hidden __ __ __ __ __ __ __ __ __ __ __ __ __ __
 72
    65
 73
     2
 40
1.905
 49
1.27
 74
     0
 49
-0.635
 74
     0
  0
LTYPE
  5
6F
330
5
100
AcDbSymbolTableRecord
100
AcDbLinetypeTableRecord
  2
PHANTOM
 70
     0
  3
Phantom ______  __  __  ______  __  __  ______
 72
    65
 73
     6
 40
12.7
 49
6.35
 74
     0
 49
-1.27
 74
     0
 49
1.27
 74
     0
 49
-1.27
 74
     0
 49
1.27
 74
     0
 49
-1.27
 74
     0
  0
LTYPE
  5
70
330
5
100
AcDbSymbolTableRecord
100
AcDbLinetypeTableRecord
  2
CENTER
 70
     0
  3
Center ____ _ ____ _ ____ _ ____ _ ____ _ ____
 72
    65
 73
     4
 40
10.16
 49
6.35
 74
     0
 49
-1.27
 74
     0
 49
1.27
 74
     0
 49
-1.27
 74
     0
  0
LTYPE
  5
71
330
5
100
AcDbSymbolTableRecord
100
AcDbLinetypeTableRecord
  2
CENTERX2
 70
     0
  3
Center (2x) ________  __  ________  __  _____
 72
    65
 73
     4
 40
20.32
 49
12.7
 74
     0
 49
-2.54
 74
     0
 49
2.54
 74
     0
 49
-2.54
 74
     0
  0
LTYPE
  5
72
330
5
100
AcDbSymbolTableRecord
100
AcDbLinetypeTableRecord
  2
DOT2
 70
     0
  3
Dot (.5x) ........................................
 72
    65
 73
     2
 40
0.635
 49
0.0
 74
     0
 49
-0.635
 74
     0
  0
ENDTAB
  0
TABLE
  2
LAYER
  5
2
330
0
100
AcDbSymbolTable
 70
    17
  0
LAYER
  5
10
330
2
100
AcDbSymbolTableRecord
100
AcDbLayerTableRecord
  2
0
 70
     0
 62
     7
  6
Continuous
370
    -3
390
F
  0
LAYER
  5
73
330
2
100
AcDbSymbolTableRecord
100
AcDbLayerTableRecord
  2
FORMAT
 70
     0
 62
     7
  6
Continuous
370
    -3
390
F
  0
LAYER
  5
74
330
2
100
AcDbSymbolTableRecord
100
AcDbLayerTableRecord
  2
YARDIMCI_GEOMETRI
 70
     0
 62
    -6
  6
Continuous
290
     0
370
    -3
390
F
  0
LAYER
  5
75
330
2
100
AcDbSymbolTableRecord
100
AcDbLayerTableRecord
  2
SAYFA_CERCEVESI
 70
     0
 62
     7
  6
Continuous
370
    25
390
F
  0
LAYER
  5
76
330
2
100
AcDbSymbolTableRecord
100
AcDbLayerTableRecord
  2
ANTET
 70
     0
 62
     7
  6
Continuous
370
    -3
390
F
  0
LAYER
  5
77
330
2
100
AcDbSymbolTableRecord
100
AcDbLayerTableRecord
  2
OLCU
 70
     0
 62
   150
  6
Continuous
370
    -3
390
F
  0
LAYER
  5
78
330
2
100
AcDbSymbolTableRecord
100
AcDbLayerTableRecord
  2
METIN
 70
     0
 62
    96
  6
Continuous
370
    -3
390
F
  0
LAYER
  5
79
330
2
100
AcDbSymbolTableRecord
100
AcDbLayerTableRecord
  2
BALON
 70
     0
 62
     5
  6
Continuous
370
    -3
390
F
  0
LAYER
  5
7A
330
2
100
AcDbSymbolTableRecord
100
AcDbLayerTableRecord
  2
VURGU
 70
     0
 62
     7
  6
Continuous
370
    -3
390
F
  0
LAYER
  5
7B
330
2
100
AcDbSymbolTableRecord
100
AcDbLayerTableRecord
  2
SILIK
 70
     0
 62
     7
  6
Continuous
370
    -3
390
F
  0
LAYER
  5
7C
330
2
100
AcDbSymbolTableRecord
100
AcDbLayerTableRecord
  2
MODEL
 70
     0
 62
     7
  6
Continuous
370
    -3
390
F
  0
LAYER
  5
7D
330
2
100
AcDbSymbolTableRecord
100
AcDbLayerTableRecord
  2
DETAYLANDıRMA
 70
     0
 62
   190
  6
Continuous
370
    -3
390
F
  0
LAYER
  5
7E
330
2
100
AcDbSymbolTableRecord
100
AcDbLayerTableRecord
  2
TOLERANS
 70
     0
 62
   230
  6
Continuous
370
    -3
390
F
  0
LAYER
  5
7F
330
2
100
AcDbSymbolTableRecord
100
AcDbLayerTableRecord
  2
MERKEZ_CIZGILERI
 70
     0
 62
    30
  6
Continuous
370
    -3
390
F
  0
LAYER
  5
80
330
2
100
AcDbSymbolTableRecord
100
AcDbLayerTableRecord
  2
KESIT-DETAY_CIZGILERI
 70
     0
 62
     7
  6
Continuous
370
    -3
390
F
  0
LAYER
  5
81
330
2
100
AcDbSymbolTableRecord
100
AcDbLayerTableRecord
  2
\U+041E\U+0421\U+0415\U+0412\U+042B\U+0415
 70
     0
 62
     7
  6
Continuous
370
    -3
390
F
  0
LAYER
  5
82
330
2
100
AcDbSymbolTableRecord
100
AcDbLayerTableRecord
  2
\U+0412\U+041E\U+0414\U+042F\U+041D\U+042B\U+0415_\U+0417\U+041D\U+0410\U+041A\U+0418
 70
     0
 62
    11
  6
Continuous
370
    -3
390
F
  0
ENDTAB
  0
TABLE
  2
STYLE
  5
3
330
0
100
AcDbSymbolTable
 70
     1
  0
STYLE
  5
11
330
3
100
AcDbSymbolTableRecord
100
AcDbTextStyleTableRecord
  2
Standard
 70
     0
 40
0.0
 41
1.0
 50
0.0
 71
     0
 42
3.5
  3
txt
  4

  0
ENDTAB
  0
TABLE
  2
VIEW
  5
6
330
0
100
AcDbSymbolTable
 70
     0
  0
ENDTAB
  0
TABLE
  2
UCS
  5
7
330
0
100
AcDbSymbolTable
 70
     0
  0
ENDTAB
  0
TABLE
  2
APPID
  5
9
330
0
100
AcDbSymbolTable
 70
     1
  0
APPID
  5
12
330
9
100
AcDbSymbolTableRecord
100
AcDbRegAppTableRecord
  2
ACAD
 70
     0
  0
ENDTAB
  0
TABLE
  2
DIMSTYLE
  5
A
330
0
100
AcDbSymbolTable
 70
     1
100
AcDbDimStyleTable
  0
DIMSTYLE
105
27
330
A
100
AcDbSymbolTableRecord
100
AcDbDimStyleTableRecord
  2
ISO-25
 70
     0
 41
2.5
 42
0.625
 43
3.75
 44
1.25
 73
     0
 74
     0
 77
     1
 78
     8
140
2.5
141
2.5
143
0.0393700787
147
0.625
171
     3
172
     1
178
     0
271
     2
272
     2
274
     3
278
    44
283
     0
284
     8
340
11
  0
ENDTAB
  0
TABLE
  2
BLOCK_RECORD
  5
1
330
0
100
AcDbSymbolTable
 70
     2
  0
BLOCK_RECORD
  5
1F
330
1
100
AcDbSymbolTableRecord
100
AcDbBlockTableRecord
  2
*Model_Space
340
22
  0
BLOCK_RECORD
  5
1B
330
1
100
AcDbSymbolTableRecord
100
AcDbBlockTableRecord
  2
*Paper_Space
340
1E
  0
BLOCK_RECORD
  5
23
330
1
100
AcDbSymbolTableRecord
100
AcDbBlockTableRecord
  2
*Paper_Space0
340
26
  0
BLOCK_RECORD
  5
88
330
1
100
AcDbSymbolTableRecord
100
AcDbBlockTableRecord
  2
SW_CENTERMARKSYMBOL_0
340
0
102
{BLKREFS
331
93
102
}
  0
ENDTAB
  0
ENDSEC
  0
SECTION
  2
BLOCKS
  0
BLOCK
  5
20
330
1F
100
AcDbEntity
  8
0
100
AcDbBlockBegin
  2
*Model_Space
 70
     0
 10
0.0
 20
0.0
 30
0.0
  3
*Model_Space
  1

  0
ENDBLK
  5
21
330
1F
100
AcDbEntity
  8
0
100
AcDbBlockEnd
  0
BLOCK
  5
1C
330
1B
100
AcDbEntity
 67
     1
  8
0
100
AcDbBlockBegin
  2
*Paper_Space
 70
     0
 10
0.0
 20
0.0
 30
0.0
  3
*Paper_Space
  1

  0
ENDBLK
  5
1D
330
1B
100
AcDbEntity
 67
     1
  8
0
100
AcDbBlockEnd
  0
BLOCK
  5
24
330
23
100
AcDbEntity
  8
0
100
AcDbBlockBegin
  2
*Paper_Space0
 70
     0
 10
0.0
 20
0.0
 30
0.0
  3
*Paper_Space0
  1

  0
ENDBLK
  5
25
330
23
100
AcDbEntity
  8
0
100
AcDbBlockEnd
  0
BLOCK
  5
89
330
88
100
AcDbEntity
  8
0
100
AcDbBlockBegin
  2
SW_CENTERMARKSYMBOL_0
 70
     0
 10
0.0
 20
0.0
 30
0.0
  3
SW_CENTERMARKSYMBOL_0
  1

  0
LINE
  5
8B
330
88
100
AcDbEntity
  8
FORMAT
 62
     0
100
AcDbLine
 10
0.0
 20
0.0
 30
0.0
 11
0.0
 21
2.5
 31
0.0
  0
LINE
  5
8C
330
88
100
AcDbEntity
  8
FORMAT
 62
     0
100
AcDbLine
 10
0.0
 20
0.0
 30
0.0
 11
-2.5
 21
0.0
 31
0.0
  0
LINE
  5
8D
330
88
100
AcDbEntity
  8
FORMAT
 62
     0
100
AcDbLine
 10
0.0
 20
0.0
 30
0.0
 11
0.0
 21
-2.5
 31
0.0
  0
LINE
  5
8E
330
88
100
AcDbEntity
  8
FORMAT
 62
     0
100
AcDbLine
 10
0.0
 20
0.0
 30
0.0
 11
2.5
 21
0.0
 31
0.0
  0
LINE
  5
8F
330
88
100
AcDbEntity
  8
FORMAT
 62
     0
100
AcDbLine
 10
0.0
 20
5.0
 30
0.0
 11
0.0
 21
115.0
 31
0.0
  0
LINE
  5
90
330
88
100
AcDbEntity
  8
FORMAT
 62
     0
100
AcDbLine
 10
-5.0
 20
0.0
 30
0.0
 11
-115.0
 21
0.0
 31
0.0
  0
LINE
  5
91
330
88
100
AcDbEntity
  8
FORMAT
 62
     0
100
AcDbLine
 10
0.0
 20
-5.0
 30
0.0
 11
0.0
 21
-115.0
 31
0.0
  0
LINE
  5
92
330
88
100
AcDbEntity
  8
FORMAT
 62
     0
100
AcDbLine
 10
5.0
 20
0.0
 30
0.0
 11
115.0
 21
0.0
 31
0.0
  0
ENDBLK
  5
8A
330
88
100
AcDbEntity
  8
0
100
AcDbBlockEnd
  0
ENDSEC
  0
SECTION
  2
ENTITIES
  0
CIRCLE
  5
83
330
1F
100
AcDbEntity
  8
0
  6
Continuous
 62
     7
370
    25
100
AcDbCircle
 10
139.395004093
 20
107.5851680021
 30
0.0
 40
112.5
  0
CIRCLE
  5
84
330
1F
100
AcDbEntity
  8
0
  6
Continuous
 62
     7
370
    25
100
AcDbCircle
 10
139.395004093
 20
107.5851680021
 30
0.0
 40
92.0
  0
CIRCLE
  5
85
330
1F
100
AcDbEntity
  8
0
  6
Continuous
 62
     7
370
    25
100
AcDbCircle
 10
139.395004093
 20
107.5851680021
 30
0.0
 40
91.4284584591333
  0
CIRCLE
  5
86
330
1F
100
AcDbEntity
  8
0
  6
Continuous
 62
     7
370
    25
100
AcDbCircle
 10
139.395004093
 20
107.5851680021
 30
0.0
 40
65.97154154086674
  0
CIRCLE
  5
87
330
1F
100
AcDbEntity
  8
0
  6
Continuous
 62
     7
370
    25
100
AcDbCircle
 10
139.395004093
 20
107.5851680021
 30
0.0
 40
65.40000000000002
  0
INSERT
  5
93
330
1F
100
AcDbEntity
  8
FORMAT
 62
     7
100
AcDbBlockReference
  2
SW_CENTERMARKSYMBOL_0
 10
139.395004093
 20
107.5851680021
 30
0.0
  0
ARC
  5
94
330
1F
100
AcDbEntity
  8
0
  6
Continuous
 62
     7
370
    25
100
AcDbCircle
 10
-199.3677315263
 20
218.0851680021
 30
0.0
 40
2.0
100
AcDbArc
 50
62.3367616722
 51
90.0
  0
ARC
  5
95
330
1F
100
AcDbEntity
  8
0
  6
Continuous
 62
     7
370
    25
100
AcDbCircle
 10
-199.3677315263
 20
-2.9148319979
 30
0.0
 40
2.000000000000004
100
AcDbArc
 50
270.0
 51
297.6632383278
  0
LINE
  5
96
330
1F
100
AcDbEntity
  8
0
  6
Continuous
 62
     7
370
    25
100
AcDbLine
 10
-199.3677321855
 20
220.0851650219
 30
0.0
 11
-318.8753075931
 21
220.0851650219
 31
0.0
  0
LINE
  5
97
330
1F
100
AcDbEntity
  8
0
  6
Continuous
 62
     7
370
    25
100
AcDbLine
 10
-318.8753075931
 20
-4.9148290177
 30
0.0
 11
-199.3677321855
 21
-4.9148290177
 31
0.0
  0
LINE
  5
98
330
1F
100
AcDbEntity
  8
0
  6
Continuous
 62
     7
370
    25
100
AcDbLine
 10
-198.4391830895
 20
-4.6862154026
 30
0.0
 11
-137.311445925
 21
27.3565487246
 31
0.0
  0
LINE
  5
99
330
1F
100
AcDbEntity
  8
0
  6
Continuous
 62
     7
370
    25
100
AcDbLine
 10
-137.311445925
 20
187.8137872796
 30
0.0
 11
-198.4391830895
 21
219.8565514068
 31
0.0
  0
ARC
  5
9A
330
1F
100
AcDbEntity
  8
0
  6
Continuous
 62
     7
370
    25
100
AcDbCircle
 10
-136.3828963643
 20
189.5851680021
 30
0.0
 40
2.000000000000013
100
AcDbArc
 50
242.3367616722
 51
270.0
  0
ARC
  5
9B
330
1F
100
AcDbEntity
  8
0
  6
Continuous
 62
     7
370
    25
100
AcDbCircle
 10
-136.3828963643
 20
25.5851680021
 30
0.0
 40
2.000000000000004
100
AcDbArc
 50
90.0
 51
117.6632383278
  0
LINE
  5
9C
330
1F
100
AcDbEntity
  8
0
  6
Continuous
 62
     7
370
    25
100
AcDbLine
 10
-38.8753213022
 20
187.585166214
 30
0.0
 11
-136.3828949663
 21
187.585166214
 31
0.0
  0
LINE
  5
9D
330
1F
100
AcDbEntity
  8
0
  6
Continuous
 62
     7
370
    25
100
AcDbLine
 10
-136.3828949663
 20
27.5851697903
 30
0.0
 11
-38.8753213022
 21
27.5851697903
 31
0.0
  0
LINE
  5
9E
330
1F
100
AcDbEntity
  8
0
  6
Continuous
 62
     7
370
    25
100
AcDbLine
 10
-318.8753075931
 20
220.0851650219
 30
0.0
 11
-318.8753075931
 21
-4.9148290177
 31
0.0
  0
LINE
  5
9F
330
1F
100
AcDbEntity
  8
0
  6
Continuous
 62
     7
370
    25
100
AcDbLine
 10
-38.8753213022
 20
187.585166214
 30
0.0
 11
-38.8753213022
 21
27.5851697903
 31
0.0
  0
LINE
  5
A0
330
1F
100
AcDbEntity
  8
0
  6
Continuous
 62
     1
370
    25
100
AcDbLine
 10
-198.4391830895
 20
219.8565514068
 30
0.0
 11
-198.4391830895
 21
-4.6862154026
 31
0.0
  0
LINE
  5
A1
330
1F
100
AcDbEntity
  8
0
  6
Continuous
 62
     1
370
    25
100
AcDbLine
 10
-199.3677321855
 20
220.0851650219
 30
0.0
 11
-199.3677321855
 21
-4.9148290177
 31
0.0
  0
LINE
  5
A2
330
1F
100
AcDbEntity
  8
0
  6
Continuous
 62
     1
370
    25
100
AcDbLine
 10
-137.311445925
 20
187.8137872796
 30
0.0
 11
-137.311445925
 21
27.3565487246
 31
0.0
  0
LINE
  5
A3
330
1F
100
AcDbEntity
  8
0
  6
Continuous
 62
     1
370
    25
100
AcDbLine
 10
-136.3828949663
 20
187.585166214
 30
0.0
 11
-136.3828949663
 21
27.5851697903
 31
0.0
  0
ARC
  5
A4
330
1F
100
AcDbEntity
  8
0
  6
Continuous
 62
     7
370
    25
100
AcDbCircle
 10
478.2703823435
 20
-2.9148319979
 30
0.0
 40
2.000000000000017
100
AcDbArc
 50
242.3367616722
 51
270.0
  0
ARC
  5
A5
330
1F
100
AcDbEntity
  8
0
  6
Continuous
 62
     7
370
    25
100
AcDbCircle
 10
478.2703823435
 20
218.0851680021
 30
0.0
 40
2.000000000000001
100
AcDbArc
 50
90.0
 51
117.6632383278
  0
LINE
  5
A6
330
1F
100
AcDbEntity
  8
0
  6
Continuous
 62
     7
370
    25
100
AcDbLine
 10
478.2703830026
 20
-4.9148290177
 30
0.0
 11
597.7779584102
 21
-4.9148290177
 31
0.0
  0
LINE
  5
A7
330
1F
100
AcDbEntity
  8
0
  6
Continuous
 62
     7
370
    25
100
AcDbLine
 10
597.7779584102
 20
220.0851650219
 30
0.0
 11
478.2703830026
 21
220.0851650219
 31
0.0
  0
LINE
  5
A8
330
1F
100
AcDbEntity
  8
0
  6
Continuous
 62
     7
370
    25
100
AcDbLine
 10
477.3418339066
 20
219.8565514068
 30
0.0
 11
416.2140967421
 21
187.8137872796
 31
0.0
  0
LINE
  5
A9
330
1F
100
AcDbEntity
  8
0
  6
Continuous
 62
     7
370
    25
100
AcDbLine
 10
416.2140967421
 20
27.3565487246
 30
0.0
 11
477.3418339066
 21
-4.6862154026
 31
0.0
  0
ARC
  5
AA
330
1F
100
AcDbEntity
  8
0
  6
Continuous
 62
     7
370
    25
100
AcDbCircle
 10
415.2855471814
 20
25.5851680021
 30
0.0
 40
2.000000000000017
100
AcDbArc
 50
62.3367616722
 51
90.0
  0
ARC
  5
AB
330
1F
100
AcDbEntity
  8
0
  6
Continuous
 62
     7
370
    25
100
AcDbCircle
 10
415.2855471814
 20
189.5851680021
 30
0.0
 40
2.000000000000027
100
AcDbArc
 50
270.0
 51
297.6632383278
  0
LINE
  5
AC
330
1F
100
AcDbEntity
  8
0
  6
Continuous
 62
     7
370
    25
100
AcDbLine
 10
317.7779721193
 20
27.5851697903
 30
0.0
 11
415.2855457835
 21
27.5851697903
 31
0.0
  0
LINE
  5
AD
330
1F
100
AcDbEntity
  8
0
  6
Continuous
 62
     7
370
    25
100
AcDbLine
 10
415.2855457835
 20
187.585166214
 30
0.0
 11
317.7779721193
 21
187.585166214
 31
0.0
  0
LINE
  5
AE
330
1F
100
AcDbEntity
  8
0
  6
Continuous
 62
     7
370
    25
100
AcDbLine
 10
597.7779584102
 20
107.5851680021
 30
0.0
 11
597.7779584102
 21
220.0851650219
 31
0.0
  0
LINE
  5
AF
330
1F
100
AcDbEntity
  8
0
  6
Continuous
 62
     7
370
    25
100
AcDbLine
 10
597.7779584102
 20
-4.9148290177
 30
0.0
 11
597.7779584102
 21
107.5851680021
 31
0.0
  0
LINE
  5
B0
330
1F
100
AcDbEntity
  8
0
  6
Continuous
 62
     7
370
    25
100
AcDbLine
 10
317.7779721193
 20
107.5851680021
 30
0.0
 11
317.7779721193
 21
187.585166214
 31
0.0
  0
LINE
  5
B1
330
1F
100
AcDbEntity
  8
0
  6
Continuous
 62
     7
370
    25
100
AcDbLine
 10
317.7779721193
 20
27.5851697903
 30
0.0
 11
317.7779721193
 21
107.5851680021
 31
0.0
  0
LINE
  5
B2
330
1F
100
AcDbEntity
  8
0
  6
Continuous
 62
     1
370
    25
100
AcDbLine
 10
477.3418339066
 20
107.5851680021
 30
0.0
 11
477.3418339066
 21
219.8565514068
 31
0.0
  0
LINE
  5
B3
330
1F
100
AcDbEntity
  8
0
  6
Continuous
 62
     1
370
    25
100
AcDbLine
 10
477.3418339066
 20
-4.6862154026
 30
0.0
 11
477.3418339066
 21
107.5851680021
 31
0.0
  0
LINE
  5
B4
330
1F
100
AcDbEntity
  8
0
  6
Continuous
 62
     1
370
    25
100
AcDbLine
 10
478.2703830026
 20
107.5851680021
 30
0.0
 11
478.2703830026
 21
220.0851650219
 31
0.0
  0
LINE
  5
B5
330
1F
100
AcDbEntity
  8
0
  6
Continuous
 62
     1
370
    25
100
AcDbLine
 10
478.2703830026
 20
-4.9148290177
 30
0.0
 11
478.2703830026
 21
107.5851680021
 31
0.0
  0
LINE
  5
B6
330
1F
100
AcDbEntity
  8
0
  6
Continuous
 62
     1
370
    25
100
AcDbLine
 10
416.2140967421
 20
107.5851680021
 30
0.0
 11
416.2140967421
 21
187.8137872796
 31
0.0
  0
LINE
  5
B7
330
1F
100
AcDbEntity
  8
0
  6
Continuous
 62
     1
370
    25
100
AcDbLine
 10
416.2140967421
 20
27.3565487246
 30
0.0
 11
416.2140967421
 21
107.5851680021
 31
0.0
  0
LINE
  5
B8
330
1F
100
AcDbEntity
  8
0
  6
Continuous
 62
     1
370
    25
100
AcDbLine
 10
415.2855457835
 20
107.5851680021
 30
0.0
 11
415.2855457835
 21
187.585166214
 31
0.0
  0
LINE
  5
B9
330
1F
100
AcDbEntity
  8
0
  6
Continuous
 62
     1
370
    25
100
AcDbLine
 10
415.2855457835
 20
27.5851697903
 30
0.0
 11
415.2855457835
 21
107.5851680021
 31
0.0
  0
ARC
  5
BA
330
1F
100
AcDbEntity
  8
0
  6
Continuous
 62
     7
370
    25
100
AcDbCircle
 10
249.895004093
 20
412.8611981059
 30
0.0
 40
2.000000000000052
100
AcDbArc
 50
332.3367616722
 51
0.0
  0
ARC
  5
BB
330
1F
100
AcDbEntity
  8
0
  6
Continuous
 62
     7
370
    25
100
AcDbCircle
 10
28.895004093
 20
412.8611981059
 30
0.0
 40
2.000000000000017
100
AcDbArc
 50
180.0
 51
207.6632383278
  0
LINE
  5
BC
330
1F
100
AcDbEntity
  8
0
  6
Continuous
 62
     7
370
    25
100
AcDbLine
 10
251.8950011128
 20
412.8611987651
 30
0.0
 11
251.8950011128
 21
532.3687741727
 31
0.0
  0
LINE
  5
BD
330
1F
100
AcDbEntity
  8
0
  6
Continuous
 62
     7
370
    25
100
AcDbLine
 10
26.8950070733
 20
532.3687741727
 30
0.0
 11
26.8950070733
 21
412.8611987651
 31
0.0
  0
LINE
  5
BE
330
1F
100
AcDbEntity
  8
0
  6
Continuous
 62
     7
370
    25
100
AcDbLine
 10
27.1236206883
 20
411.9326496691
 30
0.0
 11
59.1663848156
 21
350.8049125046
 31
0.0
  0
LINE
  5
BF
330
1F
100
AcDbEntity
  8
0
  6
Continuous
 62
     7
370
    25
100
AcDbLine
 10
219.6236233705
 20
350.8049125046
 30
0.0
 11
251.6663874978
 21
411.9326496691
 31
0.0
  0
ARC
  5
C0
330
1F
100
AcDbEntity
  8
0
  6
Continuous
 62
     7
370
    25
100
AcDbCircle
 10
221.395004093
 20
349.8763629439
 30
0.0
 40
2.000000000000028
100
AcDbArc
 50
152.3367616722
 51
180.0
  0
ARC
  5
C1
330
1F
100
AcDbEntity
  8
0
  6
Continuous
 62
     7
370
    25
100
AcDbCircle
 10
57.395004093
 20
349.8763629439
 30
0.0
 40
2.00000000000002
100
AcDbArc
 50
0.0
 51
27.6632383278
  0
LINE
  5
C2
330
1F
100
AcDbEntity
  8
0
  6
Continuous
 62
     7
370
    25
100
AcDbLine
 10
219.3950023049
 20
252.3687878818
 30
0.0
 11
219.3950023049
 21
349.876361546
 31
0.0
  0
LINE
  5
C3
330
1F
100
AcDbEntity
  8
0
  6
Continuous
 62
     7
370
    25
100
AcDbLine
 10
59.3950058812
 20
349.876361546
 30
0.0
 11
59.3950058812
 21
252.3687878818
 31
0.0
  0
LINE
  5
C4
330
1F
100
AcDbEntity
  8
0
  6
Continuous
 62
     7
370
    25
100
AcDbLine
 10
251.8950011128
 20
532.3687741727
 30
0.0
 11
26.8950070733
 21
532.3687741727
 31
0.0
  0
LINE
  5
C5
330
1F
100
AcDbEntity
  8
0
  6
Continuous
 62
     7
370
    25
100
AcDbLine
 10
219.3950023049
 20
252.3687878818
 30
0.0
 11
59.3950058812
 21
252.3687878818
 31
0.0
  0
LINE
  5
C6
330
1F
100
AcDbEntity
  8
0
  6
Continuous
 62
     1
370
    25
100
AcDbLine
 10
251.6663874978
 20
411.9326496691
 30
0.0
 11
27.1236206883
 21
411.9326496691
 31
0.0
  0
LINE
  5
C7
330
1F
100
AcDbEntity
  8
0
  6
Continuous
 62
     1
370
    25
100
AcDbLine
 10
251.8950011128
 20
412.8611987651
 30
0.0
 11
26.8950070733
 21
412.8611987651
 31
0.0
  0
LINE
  5
C8
330
1F
100
AcDbEntity
  8
0
  6
Continuous
 62
     1
370
    25
100
AcDbLine
 10
219.6236233705
 20
350.8049125046
 30
0.0
 11
59.1663848156
 21
350.8049125046
 31
0.0
  0
LINE
  5
C9
330
1F
100
AcDbEntity
  8
0
  6
Continuous
 62
     1
370
    25
100
AcDbLine
 10
219.3950023049
 20
349.876361546
 30
0.0
 11
59.3950058812
 21
349.876361546
 31
0.0
  0
ARC
  5
CA
330
1F
100
AcDbEntity
  8
0
  6
Continuous
 62
     7
370
    25
100
AcDbCircle
 10
28.895004093
 20
-208.6936359324
 30
0.0
 40
2.000000000000004
100
AcDbArc
 50
152.3367616722
 51
180.0
  0
ARC
  5
CB
330
1F
100
AcDbEntity
  8
0
  6
Continuous
 62
     7
370
    25
100
AcDbCircle
 10
249.895004093
 20
-208.6936359324
 30
0.0
 40
2.000000000000028
100
AcDbArc
 50
0.0
 51
27.6632383278
  0
LINE
  5
CC
330
1F
100
AcDbEntity
  8
0
  6
Continuous
 62
     7
370
    25
100
AcDbLine
 10
26.8950070733
 20
-208.6936365915
 30
0.0
 11
26.8950070733
 21
-328.2012119991
 31
0.0
  0
LINE
  5
CD
330
1F
100
AcDbEntity
  8
0
  6
Continuous
 62
     7
370
    25
100
AcDbLine
 10
251.8950011128
 20
-328.2012119991
 30
0.0
 11
251.8950011128
 21
-208.6936365915
 31
0.0
  0
LINE
  5
CE
330
1F
100
AcDbEntity
  8
0
  6
Continuous
 62
     7
370
    25
100
AcDbLine
 10
251.6663874978
 20
-207.7650874955
 30
0.0
 11
219.6236233705
 21
-146.637350331
 31
0.0
  0
LINE
  5
CF
330
1F
100
AcDbEntity
  8
0
  6
Continuous
 62
     7
370
    25
100
AcDbLine
 10
59.1663848156
 20
-146.637350331
 30
0.0
 11
27.1236206883
 21
-207.7650874955
 31
0.0
  0
ARC
  5
D0
330
1F
100
AcDbEntity
  8
0
  6
Continuous
 62
     7
370
    25
100
AcDbCircle
 10
57.395004093
 20
-145.7088007703
 30
0.0
 40
2.000000000000007
100
AcDbArc
 50
332.3367616722
 51
0.0
  0
ARC
  5
D1
330
1F
100
AcDbEntity
  8
0
  6
Continuous
 62
     7
370
    25
100
AcDbCircle
 10
221.395004093
 20
-145.7088007703
 30
0.0
 40
2.000000000000028
100
AcDbArc
 50
180.0
 51
207.6632383278
  0
LINE
  5
D2
330
1F
100
AcDbEntity
  8
0
  6
Continuous
 62
     7
370
    25
100
AcDbLine
 10
59.3950058812
 20
-48.2012257082
 30
0.0
 11
59.3950058812
 21
-145.7087993724
 31
0.0
  0
LINE
  5
D3
330
1F
100
AcDbEntity
  8
0
  6
Continuous
 62
     7
370
    25
100
AcDbLine
 10
219.3950023049
 20
-145.7087993724
 30
0.0
 11
219.3950023049
 21
-48.2012257082
 31
0.0
  0
LINE
  5
D4
330
1F
100
AcDbEntity
  8
0
  6
Continuous
 62
     7
370
    25
100
AcDbLine
 10
26.8950070733
 20
-328.2012119991
 30
0.0
 11
251.8950011128
 21
-328.2012119991
 31
0.0
  0
LINE
  5
D5
330
1F
100
AcDbEntity
  8
0
  6
Continuous
 62
     7
370
    25
100
AcDbLine
 10
59.3950058812
 20
-48.2012257082
 30
0.0
 11
219.3950023049
 21
-48.2012257082
 31
0.0
  0
LINE
  5
D6
330
1F
100
AcDbEntity
  8
0
  6
Continuous
 62
     1
370
    25
100
AcDbLine
 10
27.1236206883
 20
-207.7650874955
 30
0.0
 11
251.6663874978
 21
-207.7650874955
 31
0.0
  0
LINE
  5
D7
330
1F
100
AcDbEntity
  8
0
  6
Continuous
 62
     1
370
    25
100
AcDbLine
 10
26.8950070733
 20
-208.6936365915
 30
0.0
 11
251.8950011128
 21
-208.6936365915
 31
0.0
  0
LINE
  5
D8
330
1F
100
AcDbEntity
  8
0
  6
Continuous
 62
     1
370
    25
100
AcDbLine
 10
59.1663848156
 20
-146.637350331
 30
0.0
 11
219.6236233705
 21
-146.637350331
 31
0.0
  0
LINE
  5
D9
330
1F
100
AcDbEntity
  8
0
  6
Continuous
 62
     1
370
    25
100
AcDbLine
 10
59.3950058812
 20
-145.7087993724
 30
0.0
 11
219.3950023049
 21
-145.7087993724
 31
0.0
  0
LINE
  5
DA
330
1F
100
AcDbEntity
  8
0
  6
Continuous
 62
     7
370
    25
100
AcDbLine
 10
504.3322890314
 20
-76.8648611856
 30
0.0
 11
419.8276720575
 21
-28.081384192
 31
0.0
  0
LINE
  5
DB
330
1F
100
AcDbEntity
  8
0
  6
Continuous
 62
     7
370
    25
100
AcDbLine
 10
307.3368166879
 20
-222.9423831244
 30
0.0
 11
391.8414336618
 21
-271.7258601179
 31
0.0
  0
SPLINE
  5
DC
330
1F
100
AcDbEntity
  8
0
  6
Continuous
 62
     7
370
    25
100
AcDbSpline
210
0.0
220
0.0
230
1.0
 70
     8
 71
     3
 72
    11
 73
     7
 74
     0
 42
0.000000001
 43
0.00000001
 40
0.0
 40
0.0
 40
0.0
 40
0.0
 40
0.1974901884199876
 40
0.4915698300735235
 40
0.7849523646811045
 40
1.0
 40
1.0
 40
1.0
 40
1.0
 10
517.461710643357
 20
-89.11795514007592
 30
0.0
 10
517.0268177221827
 20
-88.49410330110739
 30
0.0
 10
515.9443323538101
 20
-86.94128315887004
 30
0.0
 10
514.0230659752036
 20
-84.69440748412475
 30
0.0
 10
511.9541065258638
 20
-82.53354947525082
 30
0.0
 10
510.5280805386246
 20
-81.32677617699096
 30
0.0
 10
509.9249229476749
 20
-80.81635457043235
 30
0.0
  0
SPLINE
  5
DD
330
1F
100
AcDbEntity
  8
0
  6
Continuous
 62
     7
370
    25
100
AcDbSpline
210
0.0
220
0.0
230
1.0
 70
     8
 71
     3
 72
    12
 73
     8
 74
     0
 42
0.000000001
 43
0.00000001
 40
0.0
 40
0.0
 40
0.0
 40
0.0
 40
0.0186302213782964
 40
0.2855316242657273
 40
0.5527908227827582
 40
0.8205445010201359
 40
1.0
 40
1.0
 40
1.0
 40
1.0
 10
397.9896723599056
 20
-274.5852679327925
 30
0.0
 10
398.0586855619013
 20
-274.6134328114326
 30
0.0
 10
399.1163998671408
 20
-275.0450950757751
 30
0.0
 10
401.2702475085699
 20
-275.6644820107456
 30
0.0
 10
404.4549283136488
 20
-276.4120642709219
 30
0.0
 10
407.3782705084494
 20
-276.8738950094162
 30
0.0
 10
409.2676379405247
 20
-276.9951810425575
 30
0.0
 10
410.0258007702527
 20
-277.0438505393064
 30
0.0
  0
LINE
  5
DE
330
1F
100
AcDbEntity
  8
0
  6
Continuous
 62
     7
370
    25
100
AcDbLine
 10
417.4219878964
 20
-276.9934476592
 30
0.0
 11
469.5851139812
 21
-272.7437115513
 31
0.0
  0
LINE
  5
DF
330
1F
100
AcDbEntity
  8
0
  6
Continuous
 62
     7
370
    25
100
AcDbLine
 10
544.0918913103
 20
-143.6802046963
 30
0.0
 11
521.6862683937
 21
-96.3828487221
 31
0.0
  0
LINE
  5
E0
330
1F
100
AcDbEntity
  8
0
  6
Continuous
 62
     7
370
    25
100
AcDbLine
 10
601.5688815187
 20
-170.5251067712
 30
0.0
 11
539.9607151712
 21
-134.9594693746
 31
0.0
  0
LINE
  5
E1
330
1F
100
AcDbEntity
  8
0
  6
Continuous
 62
     7
370
    25
100
AcDbLine
 10
459.9672189561
 20
-273.5272832669
 30
0.0
 11
521.5753853036
 21
-309.0929206634
 31
0.0
  0
LWPOLYLINE
  5
E2
330
1F
100
AcDbEntity
  8
0
  6
Continuous
 62
     7
370
    25
100
AcDbPolyline
 90
      124
 70
   128
 43
0.0
 10
284.0327335966
 20
-171.4348387317
 10
284.1364991376
 20
-166.6844672072
 10
284.4475323429
 20
-161.8266792155
 10
284.9650166173
 20
-156.8741515962
 10
285.6876085299
 20
-151.8398014459
 10
286.613416741
 20
-146.7367640628
 10
287.7400283435
 20
-141.5783549257
 10
289.0644983263
 20
-136.3780324304
 10
290.5833811846
 20
-131.1493598697
 10
292.2927098462
 20
-125.9059795758
 10
294.188027282
 20
-120.6615672949
 10
296.2643812372
 20
-115.4298139364
 10
298.5163611101
 20
-110.2243616968
 10
300.9380926837
 20
-105.0587918922
 10
303.5232539308
 20
-99.9465823735
 10
306.2651013557
 20
-94.901074069
 10
309.156485799
 20
-89.935422316
 10
312.1898577066
 20
-85.0625816517
 10
315.357309276
 20
-80.2952753994
 10
318.6505691882
 20
-75.6459317883
 10
322.0610552912
 20
-71.1266839591
 10
325.5798666975
 20
-66.7493136886
 10
329.1978180281
 20
-62.5252559559
 10
332.9054762916
 20
-58.4655228994
 10
336.6931661521
 20
-54.5807007756
 10
340.5510068077
 20
-50.8809347533
 10
344.4689330642
 20
-47.3758680785
 10
348.4367243109
 20
-44.0746557652
 10
352.4440282281
 20
-40.9858961566
 10
356.4803904217
 20
-38.1176624863
 10
360.5352804357
 20
-35.4774270252
 10
364.5981199052
 20
-33.0720813312
 10
368.658308733
 20
-30.9079028863
 10
372.7052550539
 20
-28.9905317154
 10
376.7283996006
 20
-27.3249745707
 10
380.7172484665
 20
-25.9155738515
 10
384.6613940141
 20
-24.7660137844
 10
388.5505458269
 20
-23.8792843042
 10
392.3745583683
 20
-23.2577015895
 10
396.1234546889
 20
-22.902894376
 10
399.7874567198
 20
-22.8157743018
 10
403.3569997608
 20
-22.9965822965
 10
406.8227772607
 20
-23.4448383952
 10
410.1757434522
 20
-24.1593828037
 10
413.4071581326
 20
-25.1383317958
 10
416.5085813955
 20
-26.3791537591
 10
419.4719263143
 20
-27.8785961952
 10
422.2894589423
 20
-29.632758725
 10
424.9538351912
 20
-31.6370535471
 10
427.4580955626
 20
-33.8862571493
 10
429.7957125633
 20
-36.3745042293
 10
431.9605854371
 20
-39.0953029034
 10
433.9470717745
 20
-42.0415468769
 10
435.7499822449
 20
-45.2055580296
 10
437.3646122063
 20
-48.579077293
 10
438.7867522422
 20
-52.1533102791
 10
440.0126986982
 20
-55.9189211982
 10
441.0392431456
 20
-59.866095215
 10
441.8637092595
 20
-63.984532369
 10
442.4839475505
 20
-68.2634878782
 10
442.8983406334
 20
-72.6917972354
 10
443.1058084952
 20
-77.2579075769
 10
443.1058084952
 20
-81.9499069611
 10
442.8983406334
 20
-86.7555545972
 10
442.4839475505
 20
-91.6623120238
 10
441.8637092595
 20
-96.6573794211
 10
441.0392431456
 20
-101.7277248882
 10
440.0126986982
 20
-106.8601218957
 10
438.7867522422
 20
-112.0411804643
 10
437.3646122063
 20
-117.2573813857
 10
435.7499822449
 20
-122.4951127216
 10
433.9470717745
 20
-127.7407199953
 10
431.9605854371
 20
-132.9805122745
 10
429.7957125633
 20
-138.2008199651
 10
427.4580955626
 20
-143.3880221853
 10
424.9538351912
 20
-148.528583268
 10
422.2894589423
 20
-153.6091014278
 10
419.4719263143
 20
-158.6163178867
 10
416.5085813955
 20
-163.5371655395
 10
413.4071581326
 20
-168.358814582
 10
410.1757434522
 20
-173.0686755494
 10
406.8227772607
 20
-177.6544723207
 10
403.3569997608
 20
-182.1042299464
 10
399.7874567198
 20
-186.4063446117
 10
396.1234546889
 20
-190.5495912365
 10
392.3745583683
 20
-194.5231675826
 10
388.5505458269
 20
-198.3166957699
 10
384.6613940141
 20
-201.9202853936
 10
380.7172484665
 20
-205.3245388451
 10
376.7283996006
 20
-208.5205649972
 10
372.7052550539
 20
-211.5000316741
 10
368.658308733
 20
-214.2551652682
 10
364.5981199052
 20
-216.7787810614
 10
360.5352804357
 20
-219.0642899712
 10
356.4803904217
 20
-221.105730868
 10
352.4440282281
 20
-222.8977817895
 10
348.4367243109
 20
-224.4357568008
 10
344.4689330642
 20
-225.7156587492
 10
340.5510068077
 20
-226.7341334439
 10
336.6931661521
 20
-227.488535433
 10
332.9054762916
 20
-227.9768869365
 10
329.1978180281
 20
-228.1979249923
 10
325.5798666975
 20
-228.1510649517
 10
322.0610552912
 20
-227.8364278531
 10
318.6505691882
 20
-227.2548434629
 10
315.357309276
 20
-226.4078168119
 10
312.1898577066
 20
-225.2975722989
 10
309.156485799
 20
-223.9269882915
 10
306.2651013557
 20
-222.2996579586
 10
303.5232539308
 20
-220.4198193076
 10
300.9380926837
 20
-218.2923734324
 10
298.5163611101
 20
-215.9228753866
 10
296.2643812372
 20
-213.317503764
 10
294.188027282
 20
-210.483057654
 10
292.2927098462
 20
-207.4269323055
 10
290.5833811846
 20
-204.1571008761
 10
289.0644983263
 20
-200.6820931358
 10
287.7400283435
 20
-197.0109711327
 10
286.613416741
 20
-193.1533200644
 10
285.6876085299
 20
-189.1191980893
 10
284.9650166173
 20
-184.9191348031
 10
284.4475323429
 20
-180.5640818094
 10
284.1364991376
 20
-176.0654051126
 10
284.0327335966
 20
-171.4348387317
  0
LWPOLYLINE
  5
E3
330
1F
100
AcDbEntity
  8
0
  6
Continuous
 62
     7
370
    25
100
AcDbPolyline
 90
      113
 70
   128
 43
0.0
 10
298.5284203771
 20
-163.066656875
 10
298.630763462
 20
-158.7954650523
 10
298.9374660786
 20
-154.4195515698
 10
299.4475641178
 20
-149.9526852783
 10
300.1594559993
 20
-145.4089163398
 10
301.0708974034
 20
-140.8025465693
 10
302.1790223444
 20
-136.1480670788
 10
303.4803484391
 20
-131.4601179731
 10
304.9707769062
 20
-126.7534548895
 10
306.6456136407
 20
-122.0428881629
 10
308.4995955548
 20
-117.3432372002
 10
310.5268905783
 20
-112.6692848527
 10
312.7211187321
 20
-108.0357378742
 10
315.0753679329
 20
-103.4571843361
 10
317.5822466773
 20
-98.9480175866
 10
320.233852431
 20
-94.5224271215
 10
323.0218480208
 20
-90.1943514435
 10
325.9374642678
 20
-85.977388327
 10
328.9715236959
 20
-81.884817635
 10
332.1144800438
 20
-77.929517671
 10
335.3564472414
 20
-74.1239302015
 10
338.6872231172
 20
-70.4800224339
 10
342.0963289109
 20
-67.0092642073
 10
345.5730356154
 20
-63.7225823668
 10
349.1064061236
 20
-60.6303120976
 10
352.6853242042
 20
-57.7421801981
 10
356.2985267704
 20
-55.0672803672
 10
359.934647344
 20
-52.614023779
 10
363.5822443727
 20
-50.3901288187
 10
367.2298414015
 20
-48.4025978924
 10
370.8659619751
 20
-46.657679027
 10
374.4791645412
 20
-45.1608639724
 10
378.0580826218
 20
-43.916865011
 10
381.59145313
 20
-42.9295925269
 10
385.0681598345
 20
-42.2021542493
 10
388.4772656283
 20
-41.736842708
 10
391.808041504
 20
-41.535118506
 10
395.0500087016
 20
-41.5976103233
 10
398.1929650495
 20
-41.9241301287
 10
401.2270244776
 20
-42.5136503696
 10
404.1426407246
 20
-43.3643146209
 10
406.9306363144
 20
-44.4734391083
 10
409.5822420682
 20
-45.8375507355
 10
412.0891208125
 20
-47.4523368954
 10
414.4433700134
 20
-49.3127321638
 10
416.6375981671
 20
-51.412877241
 10
418.6648931906
 20
-53.7461645768
 10
420.5188751047
 20
-56.3052535847
 10
422.1937118392
 20
-59.0820949782
 10
423.6841403064
 20
-62.067945982
 10
424.985466401
 20
-65.2534159601
 10
426.093591342
 20
-68.6284816267
 10
427.0050327461
 20
-72.1825235514
 10
427.7169246276
 20
-75.9043596189
 10
428.2270226668
 20
-79.7822792504
 10
428.5337252834
 20
-83.8040814292
 10
428.6360683683
 20
-87.9571104414
 10
428.5337252834
 20
-92.2283022641
 10
428.2270226668
 20
-96.6042157466
 10
427.7169246276
 20
-101.0710820381
 10
427.0050327461
 20
-105.6148509766
 10
426.093591342
 20
-110.2212207471
 10
424.985466401
 20
-114.8757002376
 10
423.6841403064
 20
-119.5636493433
 10
422.1937118392
 20
-124.2703124269
 10
420.5188751047
 20
-128.9808791535
 10
418.6648931906
 20
-133.6805301162
 10
416.6375981671
 20
-138.3544824637
 10
414.4433700134
 20
-142.9880294422
 10
412.0891208125
 20
-147.5665829803
 10
409.5822420682
 20
-152.0757497298
 10
406.9306363144
 20
-156.5013401949
 10
404.1426407246
 20
-160.8294158729
 10
401.2270244776
 20
-165.0463789894
 10
398.1929650495
 20
-169.1389496814
 10
395.0500087016
 20
-173.0942496454
 10
391.808041504
 20
-176.8998371149
 10
388.4772656283
 20
-180.5437448825
 10
385.0681598345
 20
-184.0145031091
 10
381.59145313
 20
-187.3011849496
 10
378.0580826218
 20
-190.3934552188
 10
374.4791645412
 20
-193.2815871183
 10
370.8659619751
 20
-195.9564869492
 10
367.2298414015
 20
-198.4097435374
 10
363.5822443727
 20
-200.6336384977
 10
359.934647344
 20
-202.621169424
 10
356.2985267704
 20
-204.3660882894
 10
352.6853242042
 20
-205.8629033441
 10
349.1064061236
 20
-207.1069023054
 10
345.5730356154
 20
-208.0941747895
 10
342.0963289109
 20
-208.8216130671
 10
338.6872231172
 20
-209.2869246084
 10
335.3564472414
 20
-209.4886488104
 10
332.1144800438
 20
-209.4261569931
 10
328.9715236959
 20
-209.0996371877
 10
325.9374642678
 20
-208.5101169468
 10
323.0218480208
 20
-207.6594526955
 10
320.233852431
 20
-206.5503282081
 10
317.5822466773
 20
-205.186216581
 10
315.0753679329
 20
-203.571430421
 10
312.7211187321
 20
-201.7110351526
 10
310.5268905783
 20
-199.6108900754
 10
308.4995955548
 20
-197.2776027396
 10
306.6456136407
 20
-194.7185137318
 10
304.9707769062
 20
-191.9416723382
 10
303.4803484391
 20
-188.9558213344
 10
302.1790223444
 20
-185.7703513564
 10
301.0708974034
 20
-182.3952856897
 10
300.1594559993
 20
-178.841243765
 10
299.4475641178
 20
-175.1194076975
 10
298.9374660786
 20
-171.241488066
 10
298.630763462
 20
-167.2196858872
 10
298.5284203771
 20
-163.066656875
  0
ARC
  5
E4
330
1F
100
AcDbEntity
  8
0
  6
Continuous
 62
     7
370
    25
100
AcDbCircle
 10
485.3479267734
 20
-109.7083757045
 30
0.0
 40
37.93550390199868
100
AcDbArc
 50
49.9659888183
 51
59.9710274167
  0
ARC
  5
E5
330
1F
100
AcDbEntity
  8
0
  6
Continuous
 62
     7
370
    25
100
AcDbCircle
 10
410.7641527225
 20
-238.9154025446
 30
0.0
 40
37.87605342187867
100
AcDbArc
 50
240.0267348242
 51
249.949166565
  0
ARC
  5
E6
330
1F
100
AcDbEntity
  8
0
  6
Continuous
 62
     7
370
    25
100
AcDbCircle
 10
468.9482420043
 20
-121.7237890572
 30
0.0
 40
58.46714278610663
100
AcDbArc
 50
11.7539544636
 51
33.7112680646
  0
ARC
  5
E7
330
1F
100
AcDbEntity
  8
0
  6
Continuous
 62
     7
370
    25
100
AcDbCircle
 10
413.1593483005
 20
-220.1014407541
 30
0.0
 40
57.04486134960809
100
AcDbArc
 50
267.0199059149
 51
288.9252844498
  0
ARC
  5
E8
330
1F
100
AcDbEntity
  8
0
  6
Continuous
 62
     7
370
    25
100
AcDbCircle
 10
504.4873289255
 20
-162.2429104156
 30
0.0
 40
43.73894609287414
100
AcDbArc
 50
14.0293244423
 51
25.1125422659
  0
ARC
  5
E9
330
1F
100
AcDbEntity
  8
0
  6
Continuous
 62
     7
370
    25
100
AcDbCircle
 10
465.9717700931
 20
-230.0569358336
 30
0.0
 40
42.83943364744121
100
AcDbArc
 50
274.8384304803
 51
283.4159238823
  0
LWPOLYLINE
  5
EA
330
1F
100
AcDbEntity
  8
0
  6
Continuous
 62
     7
370
    25
100
AcDbPolyline
 90
       54
 70
   128
 43
0.0
 10
601.5688815187
 20
-170.5251067712
 10
601.5721320944
 20
-170.5269838986
 10
603.9142956864
 20
-172.0480655746
 10
606.1019542002
 20
-173.8164048667
 10
608.1271313445
 20
-175.8255401335
 10
609.9824303476
 20
-178.0681489445
 10
611.6610919086
 20
-180.536038959
 10
613.1569783927
 20
-183.2202118042
 10
614.4646370513
 20
-186.1108722065
 10
615.5793000222
 20
-189.1974690563
 10
616.4968948662
 20
-192.4687425578
 10
617.2140761772
 20
-195.9127561717
 10
617.7282255822
 20
-199.5169422425
 10
618.0374675464
 20
-203.2681495292
 10
618.1406746417
 20
-207.1526899743
 10
618.0374675464
 20
-211.1563907952
 10
617.7282255822
 20
-215.2646412539
 10
617.2140761772
 20
-219.4624515921
 10
616.4968948662
 20
-223.7345051223
 10
615.5793000222
 20
-228.0652110801
 10
614.4646370513
 20
-232.4387704023
 10
613.1569783927
 20
-236.839221355
 10
611.6610919086
 20
-241.2505079721
 10
609.9824303476
 20
-245.6565393704
 10
608.1271313445
 20
-250.0412308148
 10
606.1019542002
 20
-254.3885858422
 10
603.9142956864
 20
-258.6827418907
 10
601.5721320944
 20
-262.9080280895
 10
599.0840166002
 20
-267.0490306583
 10
596.4590213128
 20
-271.090635488
 10
593.7067293721
 20
-275.0180996233
 10
590.8371796305
 20
-278.8170862388
 10
587.8608455798
 20
-282.4737437252
 10
584.7885879361
 20
-285.9747148105
 10
581.6316151269
 20
-289.3072323744
 10
578.4014477298
 20
-292.4591399778
 10
575.1098723744
 20
-295.4189306417
 10
571.7688982784
 20
-298.1758084407
 10
568.3907177348
 20
-300.7197113136
 10
564.9876570504
 20
-303.0413576365
 10
561.5721334112
 20
-305.1322772081
 10
558.1566097719
 20
-306.984837291
 10
554.7535490875
 20
-308.5922812013
 10
551.3753685439
 20
-309.9487425625
 10
548.0343944479
 20
-311.0492713475
 10
544.7428190925
 20
-311.8898526958
 10
541.5126516954
 20
-312.467416985
 10
538.3556788862
 20
-312.7798626414
 10
535.2834212425
 20
-312.8260447282
 10
532.3070871918
 20
-312.6057893909
 10
529.4375374502
 20
-312.1199143855
 10
526.6852455095
 20
-311.3701788851
 10
524.0602502222
 20
-310.3593291027
 10
521.5753853036
 20
-309.0929206634
  0
LWPOLYLINE
  5
EB
330
1F
100
AcDbEntity
  8
0
  6
Continuous
 62
     1
370
    25
100
AcDbPolyline
 90
       59
 70
   128
 43
0.0
 10
509.7496447414
 20
-80.6625736583
 10
511.9627125365
 20
-82.6697341428
 10
514.3003295372
 20
-85.1579812228
 10
516.465202411
 20
-87.8787798969
 10
518.4516887484
 20
-90.8250238704
 10
520.2545992188
 20
-93.9890350231
 10
521.8692291802
 20
-97.3625542865
 10
523.2913692161
 20
-100.9367872727
 10
524.5173156721
 20
-104.7023981917
 10
525.5438601195
 20
-108.6495722085
 10
526.3683262334
 20
-112.7680093625
 10
526.9885645244
 20
-117.0469648718
 10
527.4029576073
 20
-121.4752742289
 10
527.6104254691
 20
-126.0413845704
 10
527.6104254691
 20
-130.7333839547
 10
527.4029576073
 20
-135.5390315907
 10
526.9885645244
 20
-140.4457890173
 10
526.3683262334
 20
-145.4408564146
 10
525.5438601195
 20
-150.5112018817
 10
524.5173156721
 20
-155.6435988893
 10
523.2913692161
 20
-160.8246574578
 10
521.8692291802
 20
-166.0408583792
 10
520.2545992188
 20
-171.2785897151
 10
518.4516887484
 20
-176.5241969889
 10
516.465202411
 20
-181.7639892681
 10
514.3003295372
 20
-186.9842969587
 10
511.9627125365
 20
-192.1714991788
 10
509.4584521651
 20
-197.3120602616
 10
506.7940759162
 20
-202.3925784213
 10
503.9765432882
 20
-207.3997948802
 10
501.0131983694
 20
-212.320642533
 10
497.9117751065
 20
-217.1422915755
 10
494.6803604261
 20
-221.8521525429
 10
491.3273942346
 20
-226.4379493142
 10
487.8616167347
 20
-230.88770694
 10
484.2920736937
 20
-235.1898216052
 10
480.6280716628
 20
-239.3330682301
 10
476.8791753422
 20
-243.3066445761
 10
473.0551628008
 20
-247.1001727634
 10
469.166010988
 20
-250.7037623872
 10
465.2218654404
 20
-254.1080158386
 10
461.2330165745
 20
-257.3040419907
 10
457.2098720278
 20
-260.2835086676
 10
453.1629257069
 20
-263.0386422618
 10
449.1027368791
 20
-265.5622580549
 10
445.0398974096
 20
-267.8477669647
 10
440.9850073956
 20
-269.8892078615
 10
436.948645202
 20
-271.681258783
 10
432.9413412848
 20
-273.2192337943
 10
428.9735500381
 20
-274.4991357427
 10
425.0556237816
 20
-275.5176104374
 10
421.197783126
 20
-276.2720124265
 10
417.4100932655
 20
-276.76036393
 10
413.702435002
 20
-276.9814019858
 10
410.0844836714
 20
-276.9345419452
 10
406.5656722651
 20
-276.6199048466
 10
403.1551861621
 20
-276.0383204564
 10
399.8619262499
 20
-275.1912938054
 10
397.7782071329
 20
-274.4957431833
  0
ARC
  5
EC
330
1F
100
AcDbEntity
  8
0
  6
Continuous
 62
     1
370
    25
100
AcDbCircle
 10
534.7763232725
 20
-224.3401248519
 30
0.0
 40
153.8465674754443
100
AcDbArc
 50
135.8647595335
 51
164.1406157023
  0
LWPOLYLINE
  5
ED
330
1F
100
AcDbEntity
  8
0
  6
Continuous
 62
     1
370
    25
100
AcDbPolyline
 90
       41
 70
   128
 43
0.0
 10
526.1894115444
 20
-109.8134869932
 10
526.8658315845
 20
-113.2720778978
 10
527.4848107384
 20
-117.5423373958
 10
527.8983608844
 20
-121.9616488769
 10
528.1054072777
 20
-126.5184800107
 10
528.1054072777
 20
-131.2009447112
 10
527.8983608844
 20
-135.9968265224
 10
527.4848107384
 20
-140.8936128386
 10
526.8658315845
 20
-145.8785304558
 10
526.0430355395
 20
-150.9385748493
 10
525.0185773611
 20
-156.0605415436
 10
523.7951281058
 20
-161.2310694564
 10
522.375875129
 20
-166.436669796
 10
520.7645273535
 20
-171.6637580012
 10
518.9652783906
 20
-176.8987069707
 10
516.9828328822
 20
-182.1278501067
 10
514.8223590858
 20
-187.33754519
 10
512.4894888738
 20
-192.5142078399
 10
509.9903177344
 20
-197.6443236819
 10
507.3313573556
 20
-202.7145183057
 10
504.5195461622
 20
-207.7115633498
 10
501.5622282428
 20
-212.6224099601
 10
498.4671059337
 20
-217.4342587481
 10
495.2422608933
 20
-222.1345476251
 10
491.8961066862
 20
-226.7110217605
 10
488.4373729784
 20
-231.1517366225
 10
484.8750818296
 20
-235.4451142497
 10
481.2185266199
 20
-239.579943249
 10
477.4772483422
 20
-243.5454411522
 10
473.661006626
 20
-247.3312589749
 10
469.7797586644
 20
-250.927529885
 10
465.8436276035
 20
-254.3248631157
 10
461.8628854205
 20
-257.5143964358
 10
457.8479160452
 20
-260.487805272
 10
453.8091939574
 20
-263.2373454827
 10
449.7572557868
 20
-265.755827167
 10
445.7026727368
 20
-268.0366914213
 10
441.6560227609
 20
-270.0739838157
 10
437.6278627392
 20
-271.862388707
 10
433.6287023834
 20
-273.3972443032
 10
431.6609871986
 20
-274.062589412
  0
LWPOLYLINE
  5
EE
330
1F
100
AcDbEntity
  8
0
  6
Continuous
 62
     1
370
    25
100
AcDbPolyline
 90
       37
 70
   128
 43
0.0
 10
546.9216201826
 20
-151.6397820649
 10
547.0490037639
 20
-152.15143193
 10
547.7682344654
 20
-155.6052876469
 10
548.2838537417
 20
-159.2197728046
 10
548.5939807898
 20
-162.981699279
 10
548.697482913
 20
-166.8773406088
 10
548.5939807898
 20
-170.8924829464
 10
548.2838537417
 20
-175.012474489
 10
547.7682344654
 20
-179.2222809913
 10
547.0490037639
 20
-183.5065428005
 10
546.1287852786
 20
-187.8496258061
 10
545.0109402206
 20
-192.235680756
 10
543.6995410292
 20
-196.648707893
 10
542.19937664
 20
-201.0726056252
 10
540.5159261433
 20
-205.4912207141
 10
538.6553219057
 20
-209.8884440892
 10
536.6243601064
 20
-214.2482214955
 10
534.4304454198
 20
-218.554652349
 10
532.0815910156
 20
-222.7920140706
 10
529.5863632406
 20
-226.9448487747
 10
526.9538658143
 20
-230.9980088945
 10
524.193708218
 20
-234.9366936822
 10
521.3159582802
 20
-238.7465404592
 10
518.3311211028
 20
-242.4136367823
 10
515.2500811095
 20
-245.9246177771
 10
512.0840875576
 20
-249.2666623341
 10
508.8446900007
 20
-252.427572952
 10
505.5437079956
 20
-255.3958236434
 10
502.1931863213
 20
-258.1605797026
 10
498.8053521737
 20
-260.7117528355
 10
495.3925664333
 20
-263.0400353759
 10
491.9672821766
 20
-265.1369303194
 10
488.54199792
 20
-266.9947843994
 10
485.1292121796
 20
-268.6068204029
 10
481.741378032
 20
-269.9671573179
 10
478.3908563577
 20
-271.070831242
 10
475.911300625
 20
-271.7273426955
  0
ARC
  5
EF
330
1F
100
AcDbEntity
  8
0
  6
Continuous
 62
     1
370
    25
100
AcDbCircle
 10
536.789459704
 20
-225.5022845789
 30
0.0
 40
153.9396414862768
100
AcDbArc
 50
137.668979012
 51
162.3363953217
  0
LWPOLYLINE
  5
F0
330
1F
100
AcDbEntity
  8
0
  6
Continuous
 62
     1
370
    25
100
AcDbPolyline
 90
       45
 70
   128
 43
0.0
 10
542.6401536501
 20
-140.6156448271
 10
542.7128253536
 20
-140.7330519072
 10
544.2087118377
 20
-143.4172247524
 10
545.5163704963
 20
-146.3078851547
 10
546.6310334672
 20
-149.3944820045
 10
547.5486283112
 20
-152.665755506
 10
548.2658096222
 20
-156.1097691199
 10
548.7799590272
 20
-159.7139551907
 10
549.0892009914
 20
-163.4651624775
 10
549.1924080867
 20
-167.3497029225
 10
549.0892009914
 20
-171.3534037434
 10
548.7799590272
 20
-175.4616542021
 10
548.2658096222
 20
-179.6594645403
 10
547.5486283112
 20
-183.9315180705
 10
546.6310334672
 20
-188.2622240283
 10
545.5163704963
 20
-192.6357833505
 10
544.2087118377
 20
-197.0362343032
 10
542.7128253536
 20
-201.4475209203
 10
541.0341637926
 20
-205.8535523186
 10
539.1788647895
 20
-210.238243763
 10
537.1536876452
 20
-214.5855987904
 10
534.9660291314
 20
-218.8797548389
 10
532.6238655394
 20
-223.1050410377
 10
530.1357500452
 20
-227.2460436065
 10
527.5107547579
 20
-231.2876484362
 10
524.7584628171
 20
-235.2151125715
 10
521.8889130755
 20
-239.014099187
 10
518.9125790249
 20
-242.6707566734
 10
515.8403213811
 20
-246.1717277587
 10
512.6833485719
 20
-249.5042453226
 10
509.4531811748
 20
-252.656152926
 10
506.1616058194
 20
-255.6159435899
 10
502.8206317234
 20
-258.3728213889
 10
499.4424511798
 20
-260.9167242618
 10
496.0393904954
 20
-263.2383705847
 10
492.6238668562
 20
-265.3292901563
 10
489.208343217
 20
-267.1818502392
 10
485.8052825325
 20
-268.7892941495
 10
482.4271019889
 20
-270.1457555107
 10
479.0861278929
 20
-271.2462842957
 10
475.7945525375
 20
-272.086865644
 10
472.5643851404
 20
-272.6644299332
 10
469.4074123312
 20
-272.9768755896
 10
466.3351546875
 20
-273.0230576764
 10
466.205281808
 20
-273.019071311
  0
ENDSEC
  0
SECTION
  2
OBJECTS
  0
DICTIONARY
  5
C
330
0
100
AcDbDictionary
281
     1
  3
ACAD_GROUP
350
D
  3
ACAD_LAYOUT
350
1A
  3
ACAD_MLINESTYLE
350
17
  3
ACAD_PLOTSETTINGS
350
19
  3
ACAD_PLOTSTYLENAME
350
E
  3
ACAD_SCALELIST
350
47
  0
DICTIONARY
  5
D
102
{ACAD_REACTORS
330
C
102
}
330
C
100
AcDbDictionary
281
     1
  0
DICTIONARY
  5
1A
102
{ACAD_REACTORS
330
C
102
}
330
C
100
AcDbDictionary
281
     1
  3
Layout1
350
1E
  3
Layout2
350
26
  3
Model
350
22
  0
DICTIONARY
  5
17
102
{ACAD_REACTORS
330
C
102
}
330
C
100
AcDbDictionary
281
     1
  3
Standard
350
18
  0
DICTIONARY
  5
19
102
{ACAD_REACTORS
330
C
102
}
330
C
100
AcDbDictionary
281
     1
  0
ACDBDICTIONARYWDFLT
  5
E
102
{ACAD_REACTORS
330
C
102
}
330
C
100
AcDbDictionary
281
     1
  3
Normal
350
F
100
AcDbDictionaryWithDefault
340
F
  0
DICTIONARY
  5
47
102
{ACAD_REACTORS
330
C
102
}
330
C
100
AcDbDictionary
281
     1
  3
A0
350
48
  3
A1
350
49
  3
A2
350
4A
  3
A3
350
4B
  3
A4
350
4C
  3
A5
350
4D
  3
A6
350
4E
  3
A7
350
4F
  3
A8
350
50
  3
A9
350
51
  3
B0
350
52
  3
B1
350
53
  3
B2
350
54
  3
B3
350
55
  3
B4
350
56
  3
B5
350
57
  3
B6
350
58
  3
B7
350
59
  3
B8
350
5A
  3
B9
350
5B
  3
C0
350
5C
  3
C1
350
5D
  3
C2
350
5E
  3
C3
350
5F
  3
C4
350
60
  3
C5
350
61
  3
C6
350
62
  3
C7
350
63
  3
C8
350
64
  3
C9
350
65
  3
D0
350
66
  3
D1
350
67
  3
D2
350
68
  0
LAYOUT
  5
1E
102
{ACAD_REACTORS
330
1A
102
}
330
1A
100
AcDbPlotSettings
  1

  2
none_device
  4

  6

 40
0.0
 41
0.0
 42
0.0
 43
0.0
 44
0.0
 45
0.0
 46
0.0
 47
0.0
 48
0.0
 49
0.0
140
0.0
141
0.0
142
1.0
143
1.0
 70
   688
 72
     1
 73
     0
 74
     5
  7

 75
    16
147
1.0
148
0.0
149
0.0
100
AcDbLayout
  1
Layout1
 70
     1
 71
     1
 10
0.0
 20
0.0
 11
420.0
 21
297.0
 12
0.0
 22
0.0
 32
0.0
 14
1.0000000000E+20
 24
1.0000000000E+20
 34
1.0000000000E+20
 15
-1.0000000000E+20
 25
-1.0000000000E+20
 35
-1.0000000000E+20
146
0.0
 13
0.0
 23
0.0
 33
0.0
 16
1.0
 26
0.0
 36
0.0
 17
0.0
 27
1.0
 37
0.0
 76
     0
330
1B
  0
LAYOUT
  5
26
102
{ACAD_REACTORS
330
1A
102
}
330
1A
100
AcDbPlotSettings
  1

  2
none_device
  4

  6

 40
0.0
 41
0.0
 42
0.0
 43
0.0
 44
0.0
 45
0.0
 46
0.0
 47
0.0
 48
0.0
 49
0.0
140
0.0
141
0.0
142
1.0
143
1.0
 70
   688
 72
     1
 73
     0
 74
     5
  7

 75
    16
147
1.0
148
0.0
149
0.0
100
AcDbLayout
  1
Layout2
 70
     1
 71
     2
 10
0.0
 20
0.0
 11
0.0
 21
0.0
 12
0.0
 22
0.0
 32
0.0
 14
0.0
 24
0.0
 34
0.0
 15
0.0
 25
0.0
 35
0.0
146
0.0
 13
0.0
 23
0.0
 33
0.0
 16
1.0
 26
0.0
 36
0.0
 17
0.0
 27
1.0
 37
0.0
 76
     0
330
23
  0
LAYOUT
  5
22
102
{ACAD_REACTORS
330
1A
102
}
330
1A
100
AcDbPlotSettings
  1

  2
none_device
  4
Letter_(8.50_x_11.00_Inches)
  6

 40
6.35
 41
6.35
 42
6.35000508
 43
6.35000508
 44
215.9
 45
279.4
 46
0.0
 47
0.0
 48
0.0
 49
0.0
140
0.0
141
0.0
142
1.0
143
1.0
 70
  1712
 72
     1
 73
     0
 74
     0
  7

 75
     0
147
1.0
148
0.0
149
0.0
100
AcDbLayout
  1
Model
 70
     1
 71
     0
 10
0.0
 20
0.0
 11
279.4
 21
215.9
 12
0.0
 22
0.0
 32
0.0
 14
0.0
 24
0.0
 34
0.0
 15
279.4
 25
215.9
 35
0.0
146
0.0
 13
0.0
 23
0.0
 33
0.0
 16
1.0
 26
0.0
 36
0.0
 17
0.0
 27
1.0
 37
0.0
 76
     0
330
1F
331
29
  0
MLINESTYLE
  5
18
102
{ACAD_REACTORS
330
17
102
}
330
17
100
AcDbMlineStyle
  2
Standard
 70
     0
  3

 62
   256
 51
90.0
 52
90.0
 71
     2
 49
0.5
 62
   256
  6
BYLAYER
 49
-0.5
 62
   256
  6
BYLAYER
  0
ACDBPLACEHOLDER
  5
F
102
{ACAD_REACTORS
330
E
102
}
330
E
  0
SCALE
  5
48
102
{ACAD_REACTORS
330
47
102
}
330
47
100
AcDbScale
 70
     0
300
1:1
140
1.0
141
1.0
290
     1
  0
SCALE
  5
49
102
{ACAD_REACTORS
330
47
102
}
330
47
100
AcDbScale
 70
     0
300
1:2
140
1.0
141
2.0
290
     0
  0
SCALE
  5
4A
102
{ACAD_REACTORS
330
47
102
}
330
47
100
AcDbScale
 70
     0
300
1:4
140
1.0
141
4.0
290
     0
  0
SCALE
  5
4B
102
{ACAD_REACTORS
330
47
102
}
330
47
100
AcDbScale
 70
     0
300
1:5
140
1.0
141
5.0
290
     0
  0
SCALE
  5
4C
102
{ACAD_REACTORS
330
47
102
}
330
47
100
AcDbScale
 70
     0
300
1:8
140
1.0
141
8.0
290
     0
  0
SCALE
  5
4D
102
{ACAD_REACTORS
330
47
102
}
330
47
100
AcDbScale
 70
     0
300
1:10
140
1.0
141
10.0
290
     0
  0
SCALE
  5
4E
102
{ACAD_REACTORS
330
47
102
}
330
47
100
AcDbScale
 70
     0
300
1:16
140
1.0
141
16.0
290
     0
  0
SCALE
  5
4F
102
{ACAD_REACTORS
330
47
102
}
330
47
100
AcDbScale
 70
     0
300
1:20
140
1.0
141
20.0
290
     0
  0
SCALE
  5
50
102
{ACAD_REACTORS
330
47
102
}
330
47
100
AcDbScale
 70
     0
300
1:30
140
1.0
141
30.0
290
     0
  0
SCALE
  5
51
102
{ACAD_REACTORS
330
47
102
}
330
47
100
AcDbScale
 70
     0
300
1:40
140
1.0
141
40.0
290
     0
  0
SCALE
  5
52
102
{ACAD_REACTORS
330
47
102
}
330
47
100
AcDbScale
 70
     0
300
1:50
140
1.0
141
50.0
290
     0
  0
SCALE
  5
53
102
{ACAD_REACTORS
330
47
102
}
330
47
100
AcDbScale
 70
     0
300
1:100
140
1.0
141
100.0
290
     0
  0
SCALE
  5
54
102
{ACAD_REACTORS
330
47
102
}
330
47
100
AcDbScale
 70
     0
300
2:1
140
2.0
141
1.0
290
     0
  0
SCALE
  5
55
102
{ACAD_REACTORS
330
47
102
}
330
47
100
AcDbScale
 70
     0
300
4:1
140
4.0
141
1.0
290
     0
  0
SCALE
  5
56
102
{ACAD_REACTORS
330
47
102
}
330
47
100
AcDbScale
 70
     0
300
8:1
140
8.0
141
1.0
290
     0
  0
SCALE
  5
57
102
{ACAD_REACTORS
330
47
102
}
330
47
100
AcDbScale
 70
     0
300
10:1
140
10.0
141
1.0
290
     0
  0
SCALE
  5
58
102
{ACAD_REACTORS
330
47
102
}
330
47
100
AcDbScale
 70
     0
300
100:1
140
100.0
141
1.0
290
     0
  0
SCALE
  5
59
102
{ACAD_REACTORS
330
47
102
}
330
47
100
AcDbScale
 70
     0
300
1/128" = 1'-0"
140
0.0078125
141
12.0
290
     0
  0
SCALE
  5
5A
102
{ACAD_REACTORS
330
47
102
}
330
47
100
AcDbScale
 70
     0
300
1/64" = 1'-0"
140
0.015625
141
12.0
290
     0
  0
SCALE
  5
5B
102
{ACAD_REACTORS
330
47
102
}
330
47
100
AcDbScale
 70
     0
300
1/32" = 1'-0"
140
0.03125
141
12.0
290
     0
  0
SCALE
  5
5C
102
{ACAD_REACTORS
330
47
102
}
330
47
100
AcDbScale
 70
     0
300
1/16" = 1'-0"
140
0.0625
141
12.0
290
     0
  0
SCALE
  5
5D
102
{ACAD_REACTORS
330
47
102
}
330
47
100
AcDbScale
 70
     0
300
3/32" = 1'-0"
140
0.09375
141
12.0
290
     0
  0
SCALE
  5
5E
102
{ACAD_REACTORS
330
47
102
}
330
47
100
AcDbScale
 70
     0
300
1/8" = 1'-0"
140
0.125
141
12.0
290
     0
  0
SCALE
  5
5F
102
{ACAD_REACTORS
330
47
102
}
330
47
100
AcDbScale
 70
     0
300
3/16" = 1'-0"
140
0.1875
141
12.0
290
     0
  0
SCALE
  5
60
102
{ACAD_REACTORS
330
47
102
}
330
47
100
AcDbScale
 70
     0
300
1/4" = 1'-0"
140
0.25
141
12.0
290
     0
  0
SCALE
  5
61
102
{ACAD_REACTORS
330
47
102
}
330
47
100
AcDbScale
 70
     0
300
3/8" = 1'-0"
140
0.375
141
12.0
290
     0
  0
SCALE
  5
62
102
{ACAD_REACTORS
330
47
102
}
330
47
100
AcDbScale
 70
     0
300
1/2" = 1'-0"
140
0.5
141
12.0
290
     0
  0
SCALE
  5
63
102
{ACAD_REACTORS
330
47
102
}
330
47
100
AcDbScale
 70
     0
300
3/4" = 1'-0"
140
0.75
141
12.0
290
     0
  0
SCALE
  5
64
102
{ACAD_REACTORS
330
47
102
}
330
47
100
AcDbScale
 70
     0
300
1" = 1'-0"
140
1.0
141
12.0
290
     0
  0
SCALE
  5
65
102
{ACAD_REACTORS
330
47
102
}
330
47
100
AcDbScale
 70
     0
300
1-1/2" = 1'-0"
140
1.5
141
12.0
290
     0
  0
SCALE
  5
66
102
{ACAD_REACTORS
330
47
102
}
330
47
100
AcDbScale
 70
     0
300
3" = 1'-0"
140
3.0
141
12.0
290
     0
  0
SCALE
  5
67
102
{ACAD_REACTORS
330
47
102
}
330
47
100
AcDbScale
 70
     0
300
6" = 1'-0"
140
6.0
141
12.0
290
     0
  0
SCALE
  5
68
102
{ACAD_REACTORS
330
47
102
}
330
47
100
AcDbScale
 70
     0
300
1'-0" = 1'-0"
140
12.0
141
12.0
290
     0
  0
ENDSEC
  0
EOF
